0
SECTION
2
HEADER
9
$INSUNITS
70
4
9
$ACADVER
1
AC1014
9
$HANDSEED
5
FFFF
0
ENDSEC
0
SECTION
2
TABLES
0
TABLE
2
VPORT
5
8
100
AcDbSymbolTable
0
ENDTAB
0
TABLE
2
LTYPE
5
5
100
AcDbSymbolTable
0
LTYPE
5
14
100
AcDbSymbolTableRecord
100
AcDbLinetypeTableRecord
2
BYBLOCK
70
0
0
LTYPE
5
15
100
AcDbSymbolTableRecord
100
AcDbLinetypeTableRecord
2
BYLAYER
70
0
0
ENDTAB
0
TABLE
2
LAYER
5
2
100
AcDbSymbolTable
70
2
0
LAYER
5
50
100
AcDbSymbolTableRecord
100
AcDbLayerTableRecord
2
0
70
0
6
CONTINUOUS
0
ENDTAB
0
TABLE
2
STYLE
5
3
100
AcDbSymbolTable
70
1
0
STYLE
5
11
100
AcDbSymbolTableRecord
100
AcDbTextStyleTableRecord
2
STANDARD
70
0
0
ENDTAB
0
TABLE
2
VIEW
5
6
100
AcDbSymbolTable
70
0
0
ENDTAB
0
TABLE
2
UCS
5
7
100
AcDbSymbolTable
70
0
0
ENDTAB
0
TABLE
2
APPID
5
9
100
AcDbSymbolTable
70
2
0
APPID
5
12
100
AcDbSymbolTableRecord
100
AcDbRegAppTableRecord
2
ACAD
70
0
0
ENDTAB
0
TABLE
2
DIMSTYLE
5
A
100
AcDbSymbolTable
70
1
0
ENDTAB
0
TABLE
2
BLOCK_RECORD
5
1
100
AcDbSymbolTable
70
1
0
BLOCK_RECORD
5
1F
100
AcDbSymbolTableRecord
100
AcDbBlockTableRecord
2
*MODEL_SPACE
0
BLOCK_RECORD
5
1B
100
AcDbSymbolTableRecord
100
AcDbBlockTableRecord
2
*PAPER_SPACE
0
ENDTAB
0
ENDSEC
0
SECTION
2
BLOCKS
0
BLOCK
5
20
100
AcDbEntity
100
AcDbBlockBegin
2
*MODEL_SPACE
0
ENDBLK
5
21
100
AcDbEntity
100
AcDbBlockEnd
0
BLOCK
5
1C
100
AcDbEntity
100
AcDbBlockBegin
2
*PAPER_SPACE
0
ENDBLK
5
1D
100
AcDbEntity
100
AcDbBlockEnd
0
ENDSEC
0
SECTION
2
ENTITIES
0
LWPOLYLINE
5
100
100
AcDbEntity
8
0
100
AcDbPolyline
90
4
70
1
43
0.0
10
53.580127018922177
20
-13.521469970012143
10
60.96626863932741
20
-26.314642528453124
10
52.306014601483014
20
-31.31464252845312
10
44.919872981077788
20
-18.521469970012138
0
LWPOLYLINE
5
101
100
AcDbEntity
8
0
100
AcDbPolyline
90
4
70
1
43
0.0
10
48.499999999999979
20
-39.641016151377563
10
34.019237886466833
20
-39.641016151377563
10
34.019237886466847
20
-29.641016151377578
10
48.5
20
-29.641016151377588
0
LWPOLYLINE
5
102
100
AcDbEntity
8
0
100
AcDbPolyline
90
4
70
1
43
0.0
10
58.580127018922198
20
22.181724007856481
10
51.339745962155625
20
9.6410161513775421
10
42.67949192431125
20
14.641016151377539
10
49.91987298107783
20
27.181724007856488
0
LWPOLYLINE
5
103
100
AcDbEntity
8
0
100
AcDbPolyline
90
4
70
1
43
0.0
10
38.500000000000007
20
39.641016151377521
10
53.272283240810481
20
39.641016151377521
10
53.272283240810474
20
29.641016151377521
10
38.5
20
29.641016151377521
0
LWPOLYLINE
5
104
100
AcDbEntity
8
0
100
AcDbPolyline
90
4
70
1
43
0.0
10
45.000000000000057
20
57.78203230275507
10
45.000000000000043
20
43.301270189221917
10
35.00000000000005
20
43.301270189221924
10
35.000000000000057
20
57.782032302755084
0
LWPOLYLINE
5
105
100
AcDbEntity
8
0
100
AcDbPolyline
90
4
70
1
43
0.0
10
-48.499999999999957
20
39.641016151377599
10
-34.019237886466819
20
39.641016151377578
10
-34.019237886466833
20
29.641016151377592
10
-48.499999999999979
20
29.641016151377606
0
LWPOLYLINE
5
106
100
AcDbEntity
8
0
100
AcDbPolyline
90
4
70
1
43
0.0
10
-10.080127018922207
20
-61.822740159234044
10
-17.320508075688782
20
-49.282032302755105
10
-8.6602540378444068
20
-44.282032302755113
10
-1.4198729810778321
20
-56.822740159234058
0
LWPOLYLINE
5
107
100
AcDbEntity
8
0
100
AcDbPolyline
90
4
70
1
43
0.0
10
15.08012701892217
20
-53.162486121389648
10
7.6939853985169337
20
-65.955658679830634
10
-0.96626863932745
20
-60.955658679830634
10
6.4198729810777877
20
-48.162486121389648
0
LWPOLYLINE
5
108
100
AcDbEntity
8
0
100
AcDbPolyline
90
4
70
1
43
0.0
10
-27.5407078564789
20
67.862159321677311
10
-14.999999999999961
20
60.621778264910731
10
-19.999999999999964
20
51.961524227066349
10
-32.54070785647891
20
59.201905283832936
0
LWPOLYLINE
5
109
100
AcDbEntity
8
0
100
AcDbPolyline
90
4
70
1
43
0.0
10
27.540707856478932
20
-67.862159321677296
10
14.999999999999991
20
-60.621778264910731
10
19.999999999999986
20
-51.961524227066349
10
32.540707856478939
20
-59.201905283832915
0
LWPOLYLINE
5
110
100
AcDbEntity
8
0
100
AcDbPolyline
90
4
70
1
43
0.0
10
-58.580127018922198
20
-22.181724007856491
10
-51.339745962155625
20
-9.6410161513775492
10
-42.67949192431125
20
-14.641016151377544
10
-49.91987298107783
20
-27.181724007856491
0
LWPOLYLINE
5
111
100
AcDbEntity
8
0
100
AcDbPolyline
90
4
70
1
43
0.0
10
-34.999999999999943
20
57.782032302755098
10
-34.999999999999957
20
43.301270189221974
10
-44.999999999999943
20
43.301270189221981
10
-44.999999999999936
20
57.782032302755127
0
LWPOLYLINE
5
112
100
AcDbEntity
8
0
100
AcDbPolyline
90
4
70
1
43
0.0
10
72.54070785647896
20
-10.080127018922207
10
60.000000000000014
20
-17.320508075688782
10
55.000000000000014
20
-8.6602540378443997
10
67.54070785647896
20
-1.4198729810778221
0
LWPOLYLINE
5
113
100
AcDbEntity
8
0
100
AcDbPolyline
90
4
70
1
43
0.0
10
34.999999999999972
20
-57.782032302755091
10
34.999999999999979
20
-43.301270189221945
10
44.999999999999964
20
-43.301270189221967
10
44.999999999999964
20
-57.782032302755098
0
LWPOLYLINE
5
114
100
AcDbEntity
8
0
100
AcDbPolyline
90
4
70
1
43
0.0
10
67.540707856478946
20
1.4198729810777926
10
55
20
8.6602540378443678
10
60
20
17.320508075688739
10
72.540707856478946
20
10.08012701892217
0
LWPOLYLINE
5
115
100
AcDbEntity
8
0
100
AcDbPolyline
90
4
70
1
43
0.0
10
-72.54070785647896
20
10.080127018922198
10
-60.000000000000014
20
17.320508075688775
10
-55.000000000000014
20
8.6602540378443944
10
-67.54070785647896
20
1.4198729810778143
0
LWPOLYLINE
5
116
100
AcDbEntity
8
0
100
AcDbPolyline
90
4
70
1
43
0.0
10
-45.000000000000014
20
-57.782032302755084
10
-45.000000000000014
20
-43.301270189221938
10
-35.000000000000014
20
-43.301270189221945
10
-35.000000000000021
20
-57.782032302755084
0
LWPOLYLINE
5
117
100
AcDbEntity
8
0
100
AcDbPolyline
90
4
70
1
43
0.0
10
-67.540707856478946
20
-1.419872981077801
10
-55
20
-8.6602540378443749
10
-60
20
-17.320508075688746
10
-72.540707856478946
20
-10.080127018922179
0
LWPOLYLINE
5
118
100
AcDbEntity
8
0
100
AcDbPolyline
90
5
70
1
43
0.0
10
0
20
-17.320508075688799
10
12.540707856478948
20
-24.560889132455369
10
7.5407078564789431
20
-33.221143170299747
10
-7.5407078564790009
20
-33.221143170299719
10
-12.540707856478955
20
-24.560889132455337
0
LWPOLYLINE
5
119
100
AcDbEntity
8
0
100
AcDbPolyline
90
5
70
1
43
0.0
10
15.000000000000021
20
-8.6602540378443962
10
27.540707856478967
20
-1.4198729810778177
10
32.54070785647896
20
-10.080127018922202
10
24.999999999999961
20
-23.141016151377571
10
14.99999999999998
20
-23.141016151377542
0
LWPOLYLINE
5
120
100
AcDbEntity
8
0
100
AcDbPolyline
90
5
70
1
43
0.0
10
15.000000000000027
20
8.6602540378443926
10
15.000000000000028
20
23.141016151377546
10
25.000000000000028
20
23.141016151377531
10
32.540707856478967
20
10.080127018922134
10
27.540707856478939
20
1.4198729810777977
0
LWPOLYLINE
5
121
100
AcDbEntity
8
0
100
AcDbPolyline
90
4
70
1
43
0.0
10
-32.54070785647896
20
-59.201905283832879
10
-20.000000000000014
20
-51.961524227066313
10
-15.000000000000034
20
-60.621778264910695
10
-27.540707856478974
20
-67.862159321677268
0
LWPOLYLINE
5
122
100
AcDbEntity
8
0
100
AcDbPolyline
90
4
70
1
43
0.0
10
-38.5
20
-39.641016151377528
10
-53.272283240810474
20
-39.641016151377528
10
-53.272283240810474
20
-29.641016151377528
10
-38.5
20
-29.641016151377528
0
LWPOLYLINE
5
123
100
AcDbEntity
8
0
100
AcDbPolyline
90
4
70
1
43
0.0
10
32.540707856478996
20
59.201905283832872
10
20.000000000000043
20
51.961524227066313
10
15.000000000000068
20
60.621778264910695
10
27.540707856479013
20
67.862159321677268
0
LWPOLYLINE
5
124
100
AcDbEntity
8
0
100
AcDbPolyline
90
4
70
1
43
0.0
10
-15.080127018922143
20
53.162486121389669
10
-7.6939853985168982
20
65.955658679830663
10
0.96626863932748552
20
60.955658679830648
10
-6.4198729810777611
20
48.162486121389662
0
LWPOLYLINE
5
125
100
AcDbEntity
8
0
100
AcDbPolyline
90
4
70
1
43
0.0
10
10.080127018922248
20
61.822740159234051
10
17.320508075688814
20
49.282032302755105
10
8.6602540378444282
20
44.282032302755113
10
1.4198729810778632
20
56.822740159234073
0
LWPOLYLINE
5
126
100
AcDbEntity
8
0
100
AcDbPolyline
90
4
70
1
43
0.0
10
-53.58012701892217
20
13.521469970012166
10
-60.966268639327396
20
26.31464252845316
10
-52.306014601483
20
31.314642528453156
10
-44.919872981077766
20
18.521469970012159
0
LWPOLYLINE
5
127
100
AcDbEntity
8
0
100
AcDbPolyline
90
8
70
1
43
0.0
10
-15.000000000000009
20
-14.52956225289466
10
-15.000000000000014
20
-23.141016151377549
10
-25.000000000000007
20
-23.141016151377546
10
-32.54070785647896
20
-10.080127018922147
10
-27.540707856478939
20
-1.419872981077801
10
-19.921432569818482
20
-5.8188636188610765
10
-12.608445283826217
20
-1.3816430771685118
10
-7.4210622396117394
20
-9.9309738786170207
0
CIRCLE
5
128
100
AcDbEntity
8
0
100
AcDbCircle
10
-2.6133351267967764
20
-39.299758963222921
30
0
40
1.0000000000000009
210
0
220
-0
230
1
0
CIRCLE
5
129
100
AcDbEntity
8
0
100
AcDbCircle
10
55.3412571881546
20
-52.027681024580808
30
0
40
0.99999999999999645
210
0
220
-0
230
1
0
CIRCLE
5
130
100
AcDbEntity
8
0
100
AcDbCircle
10
-17.386664873203266
20
-73.940775114600456
30
0
40
1.0000000000000009
210
0
220
-0
230
1
0
CIRCLE
5
131
100
AcDbEntity
8
0
100
AcDbCircle
10
17.386664873203223
20
-64.623289490909713
30
0
40
1.0000000000000009
210
0
220
-0
230
1
0
CIRCLE
5
132
100
AcDbEntity
8
0
100
AcDbCircle
10
-37.38666487320323
20
-29.982273339532167
30
0
40
1.0000000000000009
210
0
220
-0
230
1
0
CIRCLE
5
133
100
AcDbEntity
8
0
100
AcDbCircle
10
32.727922061357852
20
-21.913094090019701
30
0
40
1.0000000000000009
210
0
220
-0
230
1
0
CIRCLE
5
134
100
AcDbEntity
8
0
100
AcDbCircle
10
27.272077938642127
20
-82.009954364112957
30
0
40
1.0000000000000009
210
0
220
-0
230
1
0
CIRCLE
5
135
100
AcDbEntity
8
0
100
AcDbCircle
10
52.727922061357845
20
-56.554110241397254
30
0
40
0.99999999999999645
210
0
220
-0
230
1
0
CIRCLE
5
136
100
AcDbEntity
8
0
100
AcDbCircle
10
7.2720779386421324
20
-47.368938212735401
30
0
40
0.99999999999999978
210
0
220
-0
230
1
0
CIRCLE
5
137
100
AcDbEntity
8
0
100
AcDbCircle
10
-75.341257188154628
20
-17.38666487320323
30
0
40
0.99999999999999645
210
0
220
-0
230
1
0
CIRCLE
5
138
100
AcDbEntity
8
0
100
AcDbCircle
10
-57.386664873203237
20
-64.623289490909713
30
0
40
0.99999999999999645
210
0
220
-0
230
1
0
CIRCLE
5
139
100
AcDbEntity
8
0
100
AcDbCircle
10
-84.658742811845386
20
17.38666487320323
30
0
40
0.99999999999999645
210
0
220
-0
230
1
0
CIRCLE
5
140
100
AcDbEntity
8
0
100
AcDbCircle
10
37.386664873203244
20
29.982273339532153
30
0
40
1.0000000000000009
210
0
220
-0
230
1
0
CIRCLE
5
141
100
AcDbEntity
8
0
100
AcDbCircle
10
-64.658742811845357
20
17.254351278174362
30
0
40
1.0000000000000053
210
0
220
-0
230
1
0
CIRCLE
5
142
100
AcDbEntity
8
0
100
AcDbCircle
10
2.6133351267967897
20
39.299758963222914
30
0
40
1.0000000000000009
210
0
220
-0
230
1
0
CIRCLE
5
143
100
AcDbEntity
8
0
100
AcDbCircle
10
-32.727922061357837
20
21.913094090019719
30
0
40
1.0000000000000009
210
0
220
-0
230
1
0
LWPOLYLINE
5
144
100
AcDbEntity
8
0
100
AcDbPolyline
90
8
70
1
43
0.0
10
-20.000000000000007
20
5.77350269189626
10
-27.540707856478967
20
1.4198729810778143
10
-32.54070785647896
20
10.080127018922198
10
-24.999999999999964
20
23.141016151377567
10
-14.999999999999968
20
23.141016151377549
10
-14.999999999999973
20
14.433756729740622
10
-7.4592921435210489
20
10.080127018922184
10
-12.459292143521052
20
1.4198729810778021
0
CIRCLE
5
145
100
AcDbEntity
8
0
100
AcDbCircle
10
44.658742811845372
20
-17.386664873203234
30
0
40
0.99999999999999645
210
0
220
-0
230
1
0
CIRCLE
5
146
100
AcDbEntity
8
0
100
AcDbCircle
10
-35.341257188154628
20
-17.38666487320323
30
0
40
1.0000000000000009
210
0
220
-0
230
1
0
CIRCLE
5
147
100
AcDbEntity
8
0
100
AcDbCircle
10
-44.658742811845372
20
17.38666487320323
30
0
40
0.99999999999999645
210
0
220
-0
230
1
0
CIRCLE
5
148
100
AcDbEntity
8
0
100
AcDbCircle
10
35.341257188154628
20
17.386664873203227
30
0
40
1.0000000000000009
210
0
220
-0
230
1
0
CIRCLE
5
149
100
AcDbEntity
8
0
100
AcDbCircle
10
-52.727922061357816
20
56.554110241397275
30
0
40
0.99999999999999645
210
0
220
-0
230
1
0
CIRCLE
5
150
100
AcDbEntity
8
0
100
AcDbCircle
10
22.613335126796805
20
73.940775114600456
30
0
40
1.0000000000000009
210
0
220
-0
230
1
0
CIRCLE
5
151
100
AcDbEntity
8
0
100
AcDbCircle
10
-55.341257188154572
20
52.027681024580836
30
0
40
0.99999999999999645
210
0
220
-0
230
1
0
CIRCLE
5
152
100
AcDbEntity
8
0
100
AcDbCircle
10
-17.386664873203198
20
64.623289490909727
30
0
40
1.0000000000000009
210
0
220
-0
230
1
0
CIRCLE
5
153
100
AcDbEntity
8
0
100
AcDbCircle
10
17.386664873203287
20
73.940775114600456
30
0
40
1.0000000000000009
210
0
220
-0
230
1
0
CIRCLE
5
154
100
AcDbEntity
8
0
100
AcDbCircle
10
57.386664873203266
20
64.623289490909684
30
0
40
0.99999999999999645
210
0
220
-0
230
1
0
LWPOLYLINE
5
155
100
AcDbEntity
8
0
100
AcDbPolyline
90
5
70
1
43
0.0
10
8.8817841970012523e-15
20
17.320508075688796
10
-12.540707856478937
20
24.560889132455376
10
-7.5407078564789254
20
33.221143170299747
10
7.5407078564790169
20
33.221143170299712
10
12.540707856478971
20
24.560889132455333
0
CIRCLE
5
156
100
AcDbEntity
8
0
100
AcDbCircle
10
-27.272077938642077
20
82.009954364112971
30
0
40
1.0000000000000009
210
0
220
-0
230
1
0
CIRCLE
5
157
100
AcDbEntity
8
0
100
AcDbCircle
10
-4.6587428118453742
20
17.38666487320323
30
0
40
1.0000000000000004
210
0
220
-0
230
1
0
CIRCLE
5
158
100
AcDbEntity
8
0
100
AcDbCircle
10
4.6587428118453724
20
-17.38666487320323
30
0
40
1.0000000000000004
210
0
220
-0
230
1
0
CIRCLE
5
159
100
AcDbEntity
8
0
100
AcDbCircle
10
-22.613335126796777
20
-73.94077511460047
30
0
40
1.0000000000000009
210
0
220
-0
230
1
0
CIRCLE
5
160
100
AcDbEntity
8
0
100
AcDbCircle
10
64.658742811845372
20
-17.254351278174333
30
0
40
1.0000000000000053
210
0
220
-0
230
1
0
CIRCLE
5
161
100
AcDbEntity
8
0
100
AcDbCircle
10
-72.727922061357873
20
-21.913094090019669
30
0
40
0.99999999999999645
210
0
220
-0
230
1
0
CIRCLE
5
162
100
AcDbEntity
8
0
100
AcDbCircle
10
-47.272077938642134
20
-47.368938212735401
30
0
40
1.0000000000000053
210
0
220
-0
230
1
0
CIRCLE
5
163
100
AcDbEntity
8
0
100
AcDbCircle
10
47.272077938642134
20
47.368938212735401
30
0
40
1.0000000000000053
210
0
220
-0
230
1
0
CIRCLE
5
164
100
AcDbEntity
8
0
100
AcDbCircle
10
72.727922061357873
20
21.913094090019655
30
0
40
0.99999999999999645
210
0
220
-0
230
1
0
CIRCLE
5
165
100
AcDbEntity
8
0
100
AcDbCircle
10
-7.2720779386421057
20
47.368938212735408
30
0
40
0.99999999999999978
210
0
220
-0
230
1
0
CIRCLE
5
166
100
AcDbEntity
8
0
100
AcDbCircle
10
84.658742811845372
20
-17.386664873203237
30
0
40
0.99999999999999645
210
0
220
-0
230
1
0
CIRCLE
5
167
100
AcDbEntity
8
0
100
AcDbCircle
10
75.341257188154628
20
17.386664873203223
30
0
40
0.99999999999999645
210
0
220
-0
230
1
0
LWPOLYLINE
5
168
100
AcDbEntity
8
0
100
AcDbPolyline
90
30
70
1
43
0.0
10
59.500000000000099
20
57.446351784367678
10
59.500000000000114
20
80.540362551952683
10
40.000000000000107
20
91.798692801150423
10
20.000000000000163
20
80.251687417357957
10
1.2878587085651816e-13
20
91.798692801150494
10
-19.999999999999943
20
80.251687417357999
10
-39.999999999999915
20
91.798692801150509
10
-59.499999999999943
20
80.540362551952796
10
-59.499999999999943
20
57.446351784367842
10
-79.5
20
45.899346400575297
10
-79.5
20
22.805335632990289
10
-99.499999999999972
20
11.258330249197792
10
-99.499999999999972
20
-11.258330249197632
10
-79.500000000000043
20
-22.805335632990115
10
-79.500000000000043
20
-45.899346400575205
10
-59.500000000000071
20
-57.446351784367721
10
-59.500000000000085
20
-80.540362551952711
10
-40.000000000000071
20
-91.798692801150438
10
-20.000000000000121
20
-80.251687417357971
10
-5.3290705182007514e-14
20
-91.798692801150509
10
19.999999999999936
20
-80.251687417357999
10
39.999999999999901
20
-91.798692801150509
10
59.499999999999929
20
-80.540362551952796
10
59.499999999999929
20
-57.446351784367849
10
79.499999999999986
20
-45.899346400575354
10
79.5
20
-22.805335632990335
10
99.5
20
-11.258330249197851
10
99.500000000000014
20
11.258330249197588
10
79.500000000000057
20
22.805335632990079
10
79.500000000000057
20
45.899346400575155
0
ENDSEC
0
SECTION
2
OBJECTS
0
DICTIONARY
5
C
100
AcDbDictionary
3
ACAD_GROUP
350
D
3
ACAD_MLINESTYLE
350
17
0
DICTIONARY
5
D
100
AcDbDictionary
0
DICTIONARY
5
1A
330
C
100
AcDbDictionary
0
DICTIONARY
5
17
100
AcDbDictionary
0
ENDSEC
0
EOF
